American Soul (guitar)

  • 0 Replies
  • 435 Views
*

JFW

  • Status: Experienced Mofo
  • *****
  • 2430
  • Refu-JFW
American Soul (guitar)
« on: November 02, 2017, 12:03:48 PM »
This is what I think is mostly right. It's a nice but simple song. Towards the end The Edge is doing some other (nice) stuff but I haven't figured that out yet.

U2 - American Soul

The timing is for you ;)
e|----------|----------|
B|----------|----------|
G|----------|----------|
D|----------|----------|
A|-7-7------|-7-7------|
E|-0-0------|-0-0------|


You should bend the 9th fret on D just a little bit :)
e|-----------------------------------|
B|-----------------------------------|
G|-----------------------------------|
D|---7-5p7-----7-5p7-----7-5p7-9b-5p7|
A|-7---------7--------7--------------|
E|-0---------0--------0--------------|


Those are all a bit different, and a lot like Volcano, of course ;). If the riff is a bit different, use the 7th fret on A.
e|------------------------------------|
B|------------------------------------|
G|------------------------------------|
D|------------------------------------|
A|-(7)-(7)---(7)-(7)------------------|
E|--0---0-----0---0-----7p10p7p10p7---|
See through in the sunlight