Get Out of Your Own Way

  • 4 Replies
  • 451 Views
*

trevgreg

  • Status: Elevated
  • ***
  • 141
Get Out of Your Own Way
« on: November 01, 2017, 06:49:25 PM »
Just play the chorus to You're the Best Thing About Me.

G-D-A-Bm

No, seriously. That's pretty much the whole song. Just alternate between that and G-D-A during most of it in various forms. Middle 8 is Em-G-D.

*

Shank Asu

  • Status: Experienced Mofo
  • *****
  • 4790
  • can't fight for sh-- but sure can take a beating
Re: Get Out of Your Own Way
« Reply #1 on: November 01, 2017, 07:25:24 PM »
has this been released?  What do i not know? (a leading question- i mean with regards of this song as i haven't heard it yet)

*

ShadowMac

  • *
  • 618
  • The artist formerly known as tigerfan41
Re: Get Out of Your Own Way
« Reply #2 on: November 01, 2017, 09:08:09 PM »
Just play the chorus to You're the Best Thing About Me.

G-D-A-Bm

No, seriously. That's pretty much the whole song. Just alternate between that and G-D-A during most of it in various forms. Middle 8 is Em-G-D.

As a novice bassist/guitarist, I knew the song sounded similar to YTBTAM, just couldn't put my finger on exactly how. All makes sense now, though.

*

trevgreg

  • Status: Elevated
  • ***
  • 141
Re: Get Out of Your Own Way
« Reply #3 on: November 01, 2017, 10:00:30 PM »
As a novice bassist/guitarist, I knew the song sounded similar to YTBTAM, just couldn't put my finger on exactly how. All makes sense now, though.

Yeah, I can't stop humming the Best Thing chorus over most of it now, haha. The band does seem to love those four chords in particular though. They make up the choruses to songs like The Miracle and In a Little While too.

*

JFW

  • Status: Experienced Mofo
  • *****
  • 2352
  • Refu-JFW
Re: Get Out of Your Own Way
« Reply #4 on: November 02, 2017, 12:16:12 PM »
U2 - Get Out Of Your Own Way

(pre chorus)
e|-----------------------------------------------|
B|-----------------------------------------------|
G|-12----11----9---7/-6p-7/-9/-11/---------------|
D|-----------------------------------------------|
A|-----------------------------------------------|
E|-----------------------------------------------|

(chorus, normal) (tabbed with help with the chords of trevgreg :) )
e|-------------------------------------------------------------------|
B|-------------------------------------------------------------------|
G|--12--12--12--12--11--11--11--11--9---9---9---9---11--11--11--11---|
D|----12--12--12--12--12--12--12--12--11--11--11--11--12--12--12--12-|
A|-------------------------------------------------------------------|
E|-------------------------------------------------------------------|

(chorus, last)
e|-------------------------------------------------------------------|
B|-------------------------------------------------------------------|
G|--12--12--12--12--11--11--11--11--9---9---9---9--7/-6p-7/-9/-11/---|
D|----12--12--12--12--12--12--12--12--11--11--11---------------------|
A|-------------------------------------------------------------------|
E|-------------------------------------------------------------------|

(intermezzo)
e|------------------------------------|
B|------------------------------------|
G|--4--7/-9--11-11---4--7/-9--11-11---|
D|------------------------------------|
A|------------------------------------|
E|------------------------------------|

e|------------------------------------|
B|------------------------------------|
G|--4--7/-9--14-12-11-12-11-9-7-------|
D|------------------------------------|
A|------------------------------------|
E|------------------------------------|

(outro / Kendrick Lamar)
e|-----------------------------------------------|
B|-----------------------------------------------|
G|-----------------------------------------------|
D|-9---12--16--14--11p12p11p12p11p12p11--7/--9---|
A|-----------------------------------------------|
E|-----------------------------------------------|
« Last Edit: November 03, 2017, 05:50:45 AM by JFW »
See through in the sunlight